Перейти к содержимому




Башфорум находится по адресу; www.forum.bash-portal.ru
Фото

Знаете Тимура Муцураева?


Эта тема находится в архиве.. Вы не можете здесь отвечать.

128 ответов в этой теме

#1 aliya

 
aliya

    Бей

  • Форум ағзаһы
  • PipPipPipPipPip
  • 472 сообщений
 

Отправлено 20 Июнь 2006 - 05:09

Знаете Тимура Муцураева - чеченского певца? В первый раз я его услышала в фильме Сергея Балабанова "Война". Там прозвучала его песня "Иерусалим". Он бесспорно талантлив. Его сильные духом песни такие мощные!!!
Этот текст из альбома "Нет дороги назад". Оцените!

Жизни путь лишь один

Если духом ты слаб и безмерно собою гордишься,
Если славы добиться любыми путями стремишься –
Знай, в беде и в нужде ты с обманом и с ложью смиришься
И под натиском силы ты воле чужой покоришься.

Если верой ты слаб и моля к Небесам не взываешь,
Если, искренне каясь, пред Господом стан не склоняешь –
Знай, бесценные годы свои ты напрасно теряешь
И в мирской суете смысл жизни своей не познаешь.

Жизни путь лишь один срок земной незаметно промчится,
Каждый должен оставить свой след и чего-то добиться.
Жизнь достойно прожить и во всем от греха удалиться
И к деяньям благим должен искренне каждый стремиться.

Если судишь других, и грехи сосчитать их берешься –
Со своих же начни, до чужих ты едва доберешься.
Если деньги и роскошь к тебе притекут, - вознесешься.
Знай, богатства уйдут, на круги ты своя все ж вернешься.

Если громко живешь для себя и в делах малодушен –
Ты собой дорожишь, ты сомнения гласу послушен.
Если к тяжким страданьям, к несчастьям других равнодушен –
Знай, огонь благородства, добра в твоем сердце потушен.

Жизни путь лишь один срок земной незаметно промчится,
Каждый должен оставить свой след и чего-то добиться.
Жизнь достойно прожить и во всем от греха удалиться
И к деяньям благим должен искренне каждый стремиться.

В час суровой беды, испытав, верность друга познаешь
Цену друга познаешь, когда насовсем потеряешь.
Не всегда говори и везде разглашай все, что знаешь,
Но всегда будь, уверен и знай, что устами ты скажешь.

Тот, кто скажет – тот сеет, кто слушает – тот собирает
Сильный гнев мудреца и война храбреца испытает
Доброта одеянье святых и оно не ветшает
Все приходит для тех, кто с терпеньем судьбы ожидает.

Жизни путь лишь один срок земной незаметно промчится,
Каждый должен оставить свой след и чего-то добиться.
Жизнь достойно прожить и во всем от греха удалиться
И к деяньям благим должен искренне каждый стремиться.

#2 Бәпәнәй

 
Бәпәнәй

    Башҡорт ханы

  • Тел һаҡсыһы
  • PipPipPipPipPipPipPipPipPipPip
  • 2 029 сообщений
 

Отправлено 22 Июнь 2006 - 09:30

Знаю, была у меня кассета. Чеченцы дали послушать. По-моему этого певца уже нет в живых, может и ошибаюсь?

#3 aliya

 
aliya

    Бей

  • Форум ағзаһы
  • PipPipPipPipPip
  • 472 сообщений
 

Отправлено 22 Июнь 2006 - 10:10

Знаю, была у меня кассета. Чеченцы дали послушать. По-моему этого певца уже нет в живых, может и ошибаюсь?

Просмотреть сообщение

Да, в интернете были слухи, что он умер. Точно неизвестно. Сам знаешь с воюющим солдатом все может случиться. Надеюсь, что жив еще. Ему сейчас должно быть 26 лет.

#4 aliya

 
aliya

    Бей

  • Форум ағзаһы
  • PipPipPipPipPip
  • 472 сообщений
 

Отправлено 23 Июль 2006 - 12:48

Тимур Муцураев - это как сэсэн. Да, это настоящий современный сэсэн. Среди башкир тоже были такие сэсэны, которые вдохновляли на борьбу с врагом.
Нравится еще одна его песня.

Армия Джохара
В бой сыны Кавказа, лучшие сыны,
Ведь одной лишь целью все мы сплочены.
Смерть или свобода и огонь в сердцах
Содрогнись Россия – твой последний час.

Снова братья к бою, враг ведь не добит
Зло с коварной лестью он в себе таит.
В сердце – свежие раны тех суровых дней,
До сих пор ведь льются слезы матерей.
До сих пор в застенках братья и отцы,
К новому сражению готовятся враги.
Пусть нас стало меньше не падем мы вниз,
Армия Джохара – волки без границ.

Армия Джохара
Армия свободы
Армия возмездия
Армия народа
Мир еще услышит победный клич вайнахов
Армия Джохара, армия Аллаха.

Встань народ чеченский и взгляни кругом
Мы к чему стремились и к чему идем.
Только жаждой мести жили мы и вдруг
Кремль почему-то стал наш лучший друг.
Быстро им мы простили ужас темных дней
Быстро мы забыли умерших парней
Ведь еще до Дона мы клялись дойти
Поступью свободы, поступью войны.

Армия Джохара
Армия свободы
Армия возмездия
Армия народа
Мир еще услышит победный клич вайнахов
Армия Джохара, армия Аллаха.

Пусть собаки лают – караван идет.
В этот бой последний Джохар нас поведет
Только пред Всевышним все падем мы вниз
Армия Джохара – волки без границ

Армия Джохара
Армия свободы
Армия возмездия
Армия народа
Мир еще услышит победный клич вайнахов
Армия Джохара, армия Аллаха.

#5 Kypsak

 
Kypsak

    Мырҙа

  • Форум ағзаһы
  • PipPipPip
  • 95 сообщений
 

Отправлено 05 Сентябрь 2006 - 05:59

Да, мне тоже нравятся его песни и голос...

#6 Ксанка

 
Ксанка

    Аҡһаҡал

  • Форум ағзаһы
  • PipPipPipPipPipPipPip
  • 781 сообщений
 

Отправлено 23 Ноябрь 2006 - 05:55

Кого интересует этот исполнитель, обращайтесь. Есть некоторые песни в мп3 формате.

#7 Ксанка

 
Ксанка

    Аҡһаҡал

  • Форум ағзаһы
  • PipPipPipPipPipPipPip
  • 781 сообщений
 

Отправлено 23 Ноябрь 2006 - 05:59

12 тысяч моджахедов

Тюнинг: Eb Ab Db Gb Bb Eb (1/2 step)

Условные обозначения:
h - хаммер =)
p - пулл (соответственно =)
/ - слэйд
(2) - мертвая нота (играть и сразу приглушить)
V - ударить по струнам сверху вниз
^ - ударить по струнам снизу вверх
x - заглушить струну
~ - вибр.

Аппликатуры аккордов:
Am B Dm F G
577555 688766 557765 133211 355433

Вступление:

Eb|---------|---------------------------------|-----------------------------|-------------------------------|
Ab|---------|---------------------------------|-----------------------------|-------------------------------|
Db|---------|---------------------------------|-----------------------------|-------------------------------|
Gb|-2~-2~-2-|-3-2-3-2h3p2-0-2-3-2-3-2h3p2-0-2-|-2-0-2-3-0-3-2-0-2-3-2h3p2-0-|-3-2-3-2h3p2-0-2-3-2-3-3/5-3-2-|
Bb|-0--0--0-|-0---------------0---------------|-0-----------0-------0-------|-0---------------0-------------|
Eb|---------|---------------------------------|-----------------------------|-------------------------------|

Eb|---------0-------------0-----|
Ab|------1--0----------1--0-----|
Db|-------------2---------------|
Gb|---2-------2-----2-------(2)-|
Bb|-0-------------0-------------|
Eb|-----------------------------|

Eb|---------------------------------|---------------------------|-----------------------------------|
Ab|---------------------------------|---------------------------|-----------------------------------|
Db|---------------------------------|---------------------------|-----------------------------------|
Gb|-3-2-3-2h3p2-0-2-3-2-3-2h3p2-0-2-|-2-0-2-3-0-3-2-0-2-3-2-0h2-|-3-2-3-2h3p2-0-2-3-2-3-3/5-3-2-0h2-|
Bb|-0---------------0---------------|-0-----0-----0-----0-------|-0---------------0-----------------|
Eb|---------------------------------|---------------------------|-----------------------------------|

Am
Eb|---------0----------------0------|
Ab|------1--0h1-----------1--0h1----|
Db|---------------2---------------2-|
Gb|---2---------2------2--------2---|
Bb|-0---------------0---------------|
Eb|---------------------------------|

Куплет 1:

Am G
Eb|---------0----------------0---------------3------------3-----
Ab|------1--0h1-----------1--0h1-------------3------------3-----
Db|---------------2---------------2-------------0------------0--
Gb|---2---------2------2--------2----------0---0--------0---0---
Bb|-0---------------0--------------------2------------2---------
Eb|-----------------------------------3------------3------------
Багрово на закате солнце И жарко зной пустынь дышал

F Am
-------1------------1-------------------0----------------0------|
-------1------------1----------------1--0h1-----------1--0h1----|
----------2------------2----------------------2---------------2-|
-----3---3--------3---3-----------2---------2------2--------2---|
---3------------3---------------0---------------0---------------|
1------------1--------------------------------------------------|
Асхабов замирало сердце, пророк о будущем вещал.

Am G
Eb|---------0----------------0---------------3------------3-----
Ab|------1--0h1-----------1--0h1-------------3------------3-----
Db|---------------2---------------2-------------0------------0--
Gb|---2---------2------2--------2----------0---0--------0---0---
Bb|-0---------------0--------------------2------------2---------
Eb|-----------------------------------3------------3------------
Он говорил им о знаменьях О страшной злобе черных сил

Am G F G
F V V V V ^ V V V V
-------1------------1--x--------5--5---3---3-3-3-------------1--1---3--|
-------1------------1--x--------5--5---3---3-3-3-------------1--1---3--|
----------2------------x--------5--5---4---4-4-4-------------2--2---4--|
-----3---3--------3----x--------7--7---5---5-5-5-------------3--3---5--|
---3------------3------x--------7--7---5---5-5-5-------------3--3---5--|
1------------1---------x--------5--5---3---3-3-3-------------1--1---3--|
И как-бы в яростных сраженьях Всеж покорим Иерусалим Всеж покорим Иерусалим..

Куплет 2 (приведенные ниже аккорды брать на барэ):

Am
Двенадцать тысяч моджахедов
G
Двенадцать тысяч смелых душ
F
Отмеченных печатью неба
Am G
И крепостью священных уст
Am
"И есть народ", - пророк промолвил
G
Аллаха милостью храним
F
Суровый рок ему предписан
Am G
Он испокон непокорим
F G
Он испокон непокорим

Куплет 3 (те же аккорды, что и во 2-ом):

И станет знаменем ислама
Священной верности аплох
Пророк что указал в хадисе
Чечни воистиный народ
Под черным знаменем джихада
С врагом сражались сотни лет
И нам другой судьбы не надо
И будет твердым наш обед
И будет твердым наш обед

Припев:

Dm B
Когда свешатся все знаменья
Am G
Неумолим уже тот рок
Dm B
Чеченцы с божьего веленья
Am G F
Войска направят на восток
Dm B
Восстанут братья всего мира
Am G F
Аллах наш вечен и един
Dm B
Чеченцы вера наша сила
Am G F
И мы войдем в Иерусалим
F G
И мы войдем в Иерусалим

Куплет 5:

Пусть все сгорит в огне сражений
Пусть запылает вся земля
Но нет у нас уже сомнений
Смерть не страшила никогда
И устремятся моджахеды
К местам пророческих святынь
И встанут в авангард чеченцы
И покорят Иерусалим
И покорят Иерусалим

Припев:

Dm B
Когда свешатся все знаменья
Am G
Неумолим уже тот рок
Dm B
Чеченцы с божьего веленья
Am G F
Войска направят на восток
Dm B
Восстанут братья всего мира
Am G F
Аллах наш вечен и един
Dm B
Чеченцы вера наша сила
Am G F
И мы войдем в Иерусалим
F G Am
И мы войдем в Иерусалим

И СНОВА (темп немного увеличить):

Eb|---------------------------------|---------------------------|-----------------------------------|
Ab|---------------------------------|---------------------------|-----------------------------------|
Db|---------------------------------|---------------------------|-----------------------------------|
Gb|-3-2-3-2h3p2-0-2-3-2-3-2h3p2-0-2-|-2-0-2-3-0-3-2-0-2-3-2-0h2-|-3-2-3-2h3p2-0-2-3-2-3-3/5-3-2-0h2-|
Bb|-0---------------0---------------|-0-----0-----0-----0-------|-0---------------0-----------------|
Eb|---------------------------------|---------------------------|-----------------------------------|

Am
Eb|---------0----------------0------|
Ab|------1--0h1-----------1--0h1----|
Db|---------------2---------------2-|
Gb|---2---------2------2--------2---|
Bb|-0---------------0---------------|
Eb|---------------------------------|

Am G
Eb|---------0----------------0---------------3------------3-----
Ab|------1--0h1-----------1--0h1-------------3------------3-----
Db|---------------2---------------2-------------0------------0--
Gb|---2---------2------2--------2----------0---0--------0---0---
Bb|-0---------------0--------------------2------------2---------
Eb|-----------------------------------3------------3------------
Багрово на закате солнце И жарко зной пустынь дышал

F Am
-------1------------1-------------------0----------------0------|
-------1------------1----------------1--0h1-----------1--0h1----|
----------2------------2----------------------2---------------2-|
-----3---3--------3---3-----------2---------2------2--------2---|
---3------------3---------------0---------------0---------------|
1------------1--------------------------------------------------|
Асхабов замирало сердце, пророк о будущем вещал.

Am G
Eb|---------0----------------0---------------3------------3-----
Ab|------1--0h1-----------1--0h1-------------3------------3-----
Db|---------------2---------------2-------------0------------0--
Gb|---2---------2------2--------2----------0---0--------0---0---
Bb|-0---------------0--------------------2------------2---------
Eb|-----------------------------------3------------3------------
Он говорил им о знаменьях О страшной злобе черных сил

Am G
F -------1------------1--x--------5--3----1--3--|
-------1------------1--x--------5--3----1--3--|
----------2------------x--------5--4----2--4--|
-----3---3--------3----x--------7--5----3--5--|
---3------------3------x--------7--5----3--5--|
1------------1---------x--------5--3----1--3--|
И как-бы в яростных сраженьях Всеж покорим Иерусалим
Всеж покорим Иерусалим ..

Завершаем:

Am
Eb|---------5--------------5-------|------5-|
Ab|-----------5--------------5-----|-----5--|
Db|-------------5--------------5---|----5---|
Gb|------7--------------7----------|---7----|
Bb|----7--------------7------------|--7-----|
Eb|--5--------------5--------------|-5------|



Подобрал: Alexey V.Kalashnikov bizkitbone@pisem.net

#8 Ксанка

 
Ксанка

    Аҡһаҡал

  • Форум ағзаһы
  • PipPipPipPipPipPipPip
  • 781 сообщений
 

Отправлено 23 Ноябрь 2006 - 06:01

Будь ты проклят, Сталин


Твердыня отцов, как и прежде, наполнена славой,
Но даже частицы Кавказа не видно в округи
Бес права исправить грехи, мы так жаждем друг друга
Да чтобы дорогой, Язида тебя бог отправил.
Да что бы от синего пламени вспыхнул ты Сталин,
Круша этот мир, ты кружишь, обратив землю в пекло
Безбожная шайка твоя, разрослась и окрепла
Да что бы тебя, как Язида в гиене встречали.

Ты вышел в пределы, где стал ненавистником бога,
Стремившихся к вере изгнал навсегда из Отчизны
Всяк схожий с тобой был повержен уродствам при жизни,
Да что бы твой путь был подобен Язида дороге!
Запреты на выход из сел даже в голое поле,
Людей опозорил, ты в подлом нас выставил виде,
Родного тебе, человека убили мы что ли
Да что бы тебе указали дорогу Язида!

Земная поверхность, твоим переполнена адом,
И крепнут неверные орды твои час за часом
Ты как Абу-Джахид, от бешеной злобы затрясся
Да чтобы Язида тропой ты направился к Аду!
Со Дня Выселения минули многие годы,
По братьям и сестрам тоскуем восьмую годину
Не можем никак искупить прегрешений народа
Да чтобы с Язидом ты в пламени бешеном сгинул!

О Боже один, и от скорбного нашего зова,
Помимо Тебя звать другого на помощь не в праве
Суда Твоего ожидая мы господа славим
Будь милостив к нам, и избавь нас от боли суровой.
И ради Хамзата погибшего в Уулусской бойне,
И ради джихада всех павших при Бадре достойно
И ради Хусейна убитого злобно в Кербеле
Сейчас нас от бедствий избавь Величайший наш Дели.
И ради Хамзата погибшего в Уулусской бойне,
И ради джихада всех павших при Бадре достойно
И ради Хусейна убитого злобно в Кербеле
Сейчас нас от бедствий избавь Величайший наш Дели.

Твердыня отцов, как и прежде, наполнена славой,
Но даже частицы Кавказа не видно в округи
Бес права исправить грехи, мы так жаждем друг друга
Да чтобы дорогой Язида, тебя бог отправил.

Будь, проклят ты Сталин!!!

#9 Ксанка

 
Ксанка

    Аҡһаҡал

  • Форум ағзаһы
  • PipPipPipPipPipPipPip
  • 781 сообщений
 

Отправлено 23 Ноябрь 2006 - 06:02

Я уйду


Утром ранним свет убивает сон,
Просыпаюсь я, издавая стон.
Снова день проблем, снова суета.
Оглянусь назад сзади пустота.

Я устал от всех, я устал идти,
Я устал искать, зная не найти.
Я хотел бежать, но не хватит ног.
Я хотел молчать, но стерпеть не смог.

И, закрыв глаза, много песен спел,
И, закрыв глаза, много я стерпел.
Я умел чрез боль улыбаться всем.
Я хотел кричать, но я стал уж нем.

Я устал от всех, я устал идти,
Я устал искать, зная не найти.
Я хотел бежать, но не хватит ног.
Я хотел молчать, но стерпеть не смог.

Я пойду туда, где не был никто.
Я пойду туда, но не с тобой.
Я пойму тогда, что это судьба.
Я уйду туда, уйду навсегда...
Уйду навсегда... Уйду навсегда.

Время как стрела улетает вдаль,
Только с каждым днем все сильней печаль.
Каждый день, как бред, жду, когда же ночь.
Только вечный сон может мне помочь.

Я устал от всех, я устал идти,
Я устал искать, зная не найти.
Я хотел бежать, но не хватит ног.
Я хотел молчать, но стерпеть не смог.

Я пойду туда, где не был никто.
Я пойду туда, но не с тобой.
Я пойму тогда, что это судьба.
Я уйду туда, уйду навсегда...
Уйду навсегда... Уйду навсегда.

#10 Ксанка

 
Ксанка

    Аҡһаҡал

  • Форум ағзаһы
  • PipPipPipPipPipPipPip
  • 781 сообщений
 

Отправлено 23 Ноябрь 2006 - 06:04

Выложила слова тех песен, что есть у меня.

#11 Критик

 
Критик

    Дәрүиш

  • Форум ағзаһы
  • Pip
  • 8 сообщений
 

Отправлено 24 Ноябрь 2006 - 02:54

Кого интересует творчество Т. Муцурава его основные альбомы можете скачать здесь: http://audio.kavkazcenter.com/index.php?cat=1

"Наш грозный дух покажем мы врагу!"

#12 Критик

 
Критик

    Дәрүиш

  • Форум ағзаһы
  • Pip
  • 8 сообщений
 

Отправлено 24 Ноябрь 2006 - 02:57

Жизнь прошла, и не мало было дней
Дней, когда было грустно
Грустно нам, что уходят в даль года
На душе вдруг стало пусто


Жизнь прошла, но остался горький след
В суете дни промчались
Может быть, то последний наш рассвет
Только с чем мы остались
Позади юности лихой задор
Позади радость жизни
И в дали, маяком горит огонь
Твой корабль, последняя пристань

Может быть, ты смиришься и поймешь
То судьба, не быть иначе
Ты себя вдруг назад перенесешь
Бренный мир, ты был обманчив


Припев:
Ночь своим сияньем, нас к себе поманит
И своим молчаньем многое расскажет
Мы все, когда-то этот мир покинем
К жизни нет возврата, к жизни нет возврата

Унося с собою прошлых дней печаль
К небесам мысли улетают
Что таит за собою ночная даль
Может быть, там все прощают


Жизнь прошла, но остался горький след
В суете дни промчались
Может быть, то последний наш рассвет
Только с чем мы остались

Ночь своим сияньем, нас к себе поманит
И своим молчаньем многое расскажет
И мы все когда-то этот мир покинем
К жизни нет возврата, к жизни нет возврата

#13 Ксанка

 
Ксанка

    Аҡһаҡал

  • Форум ағзаһы
  • PipPipPipPipPipPipPip
  • 781 сообщений
 

Отправлено 24 Ноябрь 2006 - 11:10

http://chermo.narod.ru/audio/mucuraev/mucuraev_pesni.html
Здесь по моему все песни Тимура Муцураева выложены. На этом же сайте много интересной музыки.

#14 yeshlek

 
yeshlek

    Бей

  • Модератор
  • PipPipPipPipPip
  • 307 сообщений
 

Отправлено 24 Ноябрь 2006 - 01:05

Тал-сыбыктай хомгол буй хынындын
Куззэренден монхоу ялкынын
Нисек курмэскэ хун, кузем будып
Эйтсе, хылыу, етмэй акылым!


У нас ресурс же не кавказо-вакхабитский! :(

И не чечено-террористский. Вы помните, что творили чеченцы в тот приезд, когда их Путин на поезде по стране отправил, как клоунов?

Если не помните, поищите по новостям...

#15 Дедеманн

 
Дедеманн

    Башҡорт ханы

  • Форум ағзаһы
  • PipPipPipPipPipPipPipPipPipPip
  • 4 474 сообщений
 

Отправлено 24 Ноябрь 2006 - 01:41

У нас ресурс же не кавказо-вакхабитский! :( (пиши правильно, вахабитский, развелось граматеев)

Просмотреть сообщение

:-)))))))
Ваhап, башкортсахы...мужика так звали.

#16 aliya

 
aliya

    Бей

  • Форум ағзаһы
  • PipPipPipPipPip
  • 472 сообщений
 

Отправлено 24 Ноябрь 2006 - 01:41

Вах! Обрадовало, что не мне одной нравится Муцураев! :)




Админу: Не забывайте, что форум НЕЗАВИСИМЫЙ! Давайте не будем вдариваться в политику в разделе "Музыка". Вагон, как там вы назвали, ненависти что ли, - отдельный разговор. И не надо Муцураева и его музыку вмешивать в это. Это только музыка и слова... Хотя, черт меня возьми, такие мощные!


ОТВЕТ АДМИНИСТРАТОРА:
Форум НЕЗАВИСИМЫЙ, однако не следует забывать, что мы должны исполнять законы России. Я не уверен, что в нашем НЕЗАВИСИМОМ форуме стоит РЕКЛАМИРОВАТЬ песни, ресурсы, которые как раз настроены против России. Замечу, мы находимся в России. И, несмотря на придумывание Рахимовым "Добровольного присоединения Башкортостана к России", мы должны исполнять законы.
И еще, я говорю, что не уверен. Но не говорю, что так НЕ нужно делать :-)
Потому, прошу вас, пишите, но не забывайте. Рекламировать такие ресурсы не есть хорошо. ОК?

Сообщение изменено: admin (24 Ноябрь 2006 - 03:44 )


#17 хунарсы

 
хунарсы

    Башкорт ханы

  • Модератор
  • PipPipPipPipPipPipPipPipPipPip
  • 6 860 сообщений
 

Отправлено 24 Ноябрь 2006 - 01:57

... И не надо Муцураева и его музыку вмешивать в это. Это только музыка и слова... Хотя, черт меня возьми, такие мощные!

Просмотреть сообщение



"...Ведь еще до Дона мы клялись дойти
Поступью свободы, поступью войны.

Армия Джохара
Армия свободы
Армия возмездия
Армия народа
Мир еще услышит победный клич вайнахов..."


Эклектика, бахвальство, юношеский максималим, призывы к крови...
Что тут - "чёртменявозьмимощного!"??? :o :blink:

#18 aliya

 
aliya

    Бей

  • Форум ағзаһы
  • PipPipPipPipPip
  • 472 сообщений
 

Отправлено 24 Ноябрь 2006 - 02:05

Опять началось....

#19 хунарсы

 
хунарсы

    Башкорт ханы

  • Модератор
  • PipPipPipPipPipPipPipPipPipPip
  • 6 860 сообщений
 

Отправлено 24 Ноябрь 2006 - 02:19

Опять началось....

Просмотреть сообщение


... Ты это... По сути, давай. Все мы горазды восклицать и ахать: "Как это хорошо и классно!.." ;)
Вот, скажем, тот же Цой - с его простой и "донельзя" музыкальной поэтикой -

"Застоялся мой поезд в депо.
Снова я уезжаю. Пора...
На пороге ветер заждался меня.
На пороге осень - моя сестра.

После красно-желтых дней
Начнется и кончится зима.
Горе ты мое от ума,
Не печалься, гляди веселей.
И я вернусь домой
Со щитом, а, может быть, на щите,
В серебре, а, может быть, в нищете,
Но как можно скорей..."

А что твой кумир? Нечто невнятное -

"...Жизни путь лишь один срок земной незаметно промчится,
Каждый должен оставить свой след и чего-то добиться..."

:)

#20 aliya

 
aliya

    Бей

  • Форум ағзаһы
  • PipPipPipPipPip
  • 472 сообщений
 

Отправлено 24 Ноябрь 2006 - 03:13

Просмотреть сообщение


Хунарсы, ну нравится мне, нравится, нравится! От его песен, голоса просто дух у меня захватывает. А смысл есть. Тем более в той песне, которую ты привел в пример.
А Виктор Цой мне тоже нравится. Ничего против него не имею. Талант был безусловно. Но Цоя и Муцураева сравнивать как-то изощренно... Ведь понятно же кто мы, в какое время живем и против кого, во имя чего поет чеченский бард.




Башфорум на Башпортале
BaShFoRuM